ISO-10303-21;
HEADER;
/* Generated by software containing ST-Developer
 * from STEP Tools, Inc. (www.steptools.com) 
 */

FILE_DESCRIPTION(
/* description */ (''),
/* implementation_level */ '2;1');

FILE_NAME(
/* name */ '\\\\SERVER1\\dwgs\\product\\Screws\\14225.stp',
/* time_stamp */ '2016-09-23T13:35:35-04:00',
/* author */ ('cridley'),
/* organization */ (''),
/* preprocessor_version */ 'ST-DEVELOPER v15.6',
/* originating_system */ 'Autodesk Inventor 2015',
/* authorisation */ '');

FILE_SCHEMA (('AUTOMOTIVE_DESIGN { 1 0 10303 214 3 1 1 }'));
ENDSEC;

DATA;
#10=MECHANICAL_DESIGN_GEOMETRIC_PRESENTATION_REPRESENTATION('',(#13),#303);
#11=SHAPE_REPRESENTATION_RELATIONSHIP('SRR','None',#315,#12);
#12=ADVANCED_BREP_SHAPE_REPRESENTATION($,(#14),#302);
#13=STYLED_ITEM('',(#324),#14);
#14=MANIFOLD_SOLID_BREP('Solid1',#172);
#15=SPHERICAL_SURFACE('',#192,0.281);
#16=CYLINDRICAL_SURFACE('',#190,0.183);
#17=CYLINDRICAL_SURFACE('',#193,0.2185);
#18=FACE_BOUND('',#52,.T.);
#19=FACE_BOUND('',#54,.T.);
#20=FACE_BOUND('',#57,.T.);
#21=CONICAL_SURFACE('',#183,0.2035,45.);
#22=CONICAL_SURFACE('',#185,0.2035,45.);
#23=CONICAL_SURFACE('',#187,0.2165,60.);
#24=CIRCLE('',#176,0.2185);
#25=CIRCLE('',#177,0.2185);
#26=CIRCLE('',#180,0.1885);
#27=CIRCLE('',#182,0.1885);
#28=CIRCLE('',#184,0.2185);
#29=CIRCLE('',#186,0.2185);
#30=CIRCLE('',#188,0.2185);
#31=CIRCLE('',#189,0.183);
#32=CIRCLE('',#191,0.183);
#33=FACE_OUTER_BOUND('',#44,.T.);
#34=FACE_OUTER_BOUND('',#45,.T.);
#35=FACE_OUTER_BOUND('',#46,.T.);
#36=FACE_OUTER_BOUND('',#47,.T.);
#37=FACE_OUTER_BOUND('',#48,.T.);
#38=FACE_OUTER_BOUND('',#49,.T.);
#39=FACE_OUTER_BOUND('',#50,.T.);
#40=FACE_OUTER_BOUND('',#51,.T.);
#41=FACE_OUTER_BOUND('',#53,.T.);
#42=FACE_OUTER_BOUND('',#55,.T.);
#43=FACE_OUTER_BOUND('',#56,.T.);
#44=EDGE_LOOP('',(#114,#115,#116,#117,#118,#119));
#45=EDGE_LOOP('',(#120,#121,#122,#123));
#46=EDGE_LOOP('',(#124,#125,#126,#127,#128,#129));
#47=EDGE_LOOP('',(#130,#131));
#48=EDGE_LOOP('',(#132,#133));
#49=EDGE_LOOP('',(#134,#135,#136,#137));
#50=EDGE_LOOP('',(#138,#139,#140,#141));
#51=EDGE_LOOP('',(#142));
#52=EDGE_LOOP('',(#143));
#53=EDGE_LOOP('',(#144));
#54=EDGE_LOOP('',(#145));
#55=EDGE_LOOP('',(#146));
#56=EDGE_LOOP('',(#147,#148,#149,#150,#151,#152,#153,#154));
#57=EDGE_LOOP('',(#155));
#58=(
BOUNDED_CURVE()
B_SPLINE_CURVE(2,(#254,#255,#256),.UNSPECIFIED.,.F.,.F.)
B_SPLINE_CURVE_WITH_KNOTS((3,3),(0.,0.108634986784513),.UNSPECIFIED.)
CURVE()
GEOMETRIC_REPRESENTATION_ITEM()
RATIONAL_B_SPLINE_CURVE((1.,1.00281671734946,1.))
REPRESENTATION_ITEM('')
);
#59=(
BOUNDED_CURVE()
B_SPLINE_CURVE(2,(#259,#260,#261),.UNSPECIFIED.,.F.,.F.)
B_SPLINE_CURVE_WITH_KNOTS((3,3),(0.,0.108634986784513),.UNSPECIFIED.)
CURVE()
GEOMETRIC_REPRESENTATION_ITEM()
RATIONAL_B_SPLINE_CURVE((1.,1.00281671734946,1.))
REPRESENTATION_ITEM('')
);
#60=(
BOUNDED_CURVE()
B_SPLINE_CURVE(2,(#272,#273,#274),.UNSPECIFIED.,.F.,.F.)
B_SPLINE_CURVE_WITH_KNOTS((3,3),(0.,0.108634986784513),.UNSPECIFIED.)
CURVE()
GEOMETRIC_REPRESENTATION_ITEM()
RATIONAL_B_SPLINE_CURVE((1.,1.00281671734946,1.))
REPRESENTATION_ITEM('')
);
#61=(
BOUNDED_CURVE()
B_SPLINE_CURVE(2,(#278,#279,#280),.UNSPECIFIED.,.F.,.F.)
B_SPLINE_CURVE_WITH_KNOTS((3,3),(0.,0.108634986784513),.UNSPECIFIED.)
CURVE()
GEOMETRIC_REPRESENTATION_ITEM()
RATIONAL_B_SPLINE_CURVE((1.,1.00281671734946,1.))
REPRESENTATION_ITEM('')
);
#62=LINE('',#248,#70);
#63=LINE('',#250,#71);
#64=LINE('',#252,#72);
#65=LINE('',#258,#73);
#66=LINE('',#266,#74);
#67=LINE('',#270,#75);
#68=LINE('',#276,#76);
#69=LINE('',#281,#77);
#70=VECTOR('',#198,0.066);
#71=VECTOR('',#199,0.431027841328144);
#72=VECTOR('',#200,0.066);
#73=VECTOR('',#201,0.370060805814396);
#74=VECTOR('',#206,0.431027841328144);
#75=VECTOR('',#211,0.066);
#76=VECTOR('',#212,0.370060805814396);
#77=VECTOR('',#213,0.066);
#78=VERTEX_POINT('',#246);
#79=VERTEX_POINT('',#247);
#80=VERTEX_POINT('',#249);
#81=VERTEX_POINT('',#251);
#82=VERTEX_POINT('',#253);
#83=VERTEX_POINT('',#257);
#84=VERTEX_POINT('',#263);
#85=VERTEX_POINT('',#265);
#86=VERTEX_POINT('',#269);
#87=VERTEX_POINT('',#271);
#88=VERTEX_POINT('',#275);
#89=VERTEX_POINT('',#277);
#90=VERTEX_POINT('',#291);
#91=VERTEX_POINT('',#293);
#92=VERTEX_POINT('',#296);
#93=EDGE_CURVE('',#78,#79,#62,.T.);
#94=EDGE_CURVE('',#78,#80,#63,.T.);
#95=EDGE_CURVE('',#81,#80,#64,.T.);
#96=EDGE_CURVE('',#82,#81,#58,.T.);
#97=EDGE_CURVE('',#83,#82,#65,.T.);
#98=EDGE_CURVE('',#79,#83,#59,.T.);
#99=EDGE_CURVE('',#84,#78,#24,.T.);
#100=EDGE_CURVE('',#84,#85,#66,.T.);
#101=EDGE_CURVE('',#80,#85,#25,.T.);
#102=EDGE_CURVE('',#86,#84,#67,.T.);
#103=EDGE_CURVE('',#87,#86,#60,.T.);
#104=EDGE_CURVE('',#88,#87,#68,.T.);
#105=EDGE_CURVE('',#89,#88,#61,.T.);
#106=EDGE_CURVE('',#85,#89,#69,.T.);
#107=EDGE_CURVE('',#88,#87,#26,.T.);
#108=EDGE_CURVE('',#83,#82,#27,.T.);
#109=EDGE_CURVE('',#86,#89,#28,.T.);
#110=EDGE_CURVE('',#81,#79,#29,.T.);
#111=EDGE_CURVE('',#90,#90,#30,.T.);
#112=EDGE_CURVE('',#91,#91,#31,.T.);
#113=EDGE_CURVE('',#92,#92,#32,.T.);
#114=ORIENTED_EDGE('',*,*,#93,.F.);
#115=ORIENTED_EDGE('',*,*,#94,.T.);
#116=ORIENTED_EDGE('',*,*,#95,.F.);
#117=ORIENTED_EDGE('',*,*,#96,.F.);
#118=ORIENTED_EDGE('',*,*,#97,.F.);
#119=ORIENTED_EDGE('',*,*,#98,.F.);
#120=ORIENTED_EDGE('',*,*,#99,.F.);
#121=ORIENTED_EDGE('',*,*,#100,.T.);
#122=ORIENTED_EDGE('',*,*,#101,.F.);
#123=ORIENTED_EDGE('',*,*,#94,.F.);
#124=ORIENTED_EDGE('',*,*,#102,.F.);
#125=ORIENTED_EDGE('',*,*,#103,.F.);
#126=ORIENTED_EDGE('',*,*,#104,.F.);
#127=ORIENTED_EDGE('',*,*,#105,.F.);
#128=ORIENTED_EDGE('',*,*,#106,.F.);
#129=ORIENTED_EDGE('',*,*,#100,.F.);
#130=ORIENTED_EDGE('',*,*,#104,.T.);
#131=ORIENTED_EDGE('',*,*,#107,.F.);
#132=ORIENTED_EDGE('',*,*,#97,.T.);
#133=ORIENTED_EDGE('',*,*,#108,.F.);
#134=ORIENTED_EDGE('',*,*,#103,.T.);
#135=ORIENTED_EDGE('',*,*,#109,.T.);
#136=ORIENTED_EDGE('',*,*,#105,.T.);
#137=ORIENTED_EDGE('',*,*,#107,.T.);
#138=ORIENTED_EDGE('',*,*,#98,.T.);
#139=ORIENTED_EDGE('',*,*,#108,.T.);
#140=ORIENTED_EDGE('',*,*,#96,.T.);
#141=ORIENTED_EDGE('',*,*,#110,.T.);
#142=ORIENTED_EDGE('',*,*,#111,.F.);
#143=ORIENTED_EDGE('',*,*,#112,.T.);
#144=ORIENTED_EDGE('',*,*,#112,.F.);
#145=ORIENTED_EDGE('',*,*,#113,.T.);
#146=ORIENTED_EDGE('',*,*,#113,.F.);
#147=ORIENTED_EDGE('',*,*,#93,.T.);
#148=ORIENTED_EDGE('',*,*,#110,.F.);
#149=ORIENTED_EDGE('',*,*,#95,.T.);
#150=ORIENTED_EDGE('',*,*,#101,.T.);
#151=ORIENTED_EDGE('',*,*,#106,.T.);
#152=ORIENTED_EDGE('',*,*,#109,.F.);
#153=ORIENTED_EDGE('',*,*,#102,.T.);
#154=ORIENTED_EDGE('',*,*,#99,.T.);
#155=ORIENTED_EDGE('',*,*,#111,.T.);
#156=PLANE('',#174);
#157=PLANE('',#175);
#158=PLANE('',#178);
#159=PLANE('',#179);
#160=PLANE('',#181);
#161=ADVANCED_FACE('',(#33),#156,.F.);
#162=ADVANCED_FACE('',(#34),#157,.F.);
#163=ADVANCED_FACE('',(#35),#158,.F.);
#164=ADVANCED_FACE('',(#36),#159,.F.);
#165=ADVANCED_FACE('',(#37),#160,.F.);
#166=ADVANCED_FACE('',(#38),#21,.T.);
#167=ADVANCED_FACE('',(#39),#22,.T.);
#168=ADVANCED_FACE('',(#40,#18),#23,.T.);
#169=ADVANCED_FACE('',(#41,#19),#16,.T.);
#170=ADVANCED_FACE('',(#42),#15,.T.);
#171=ADVANCED_FACE('',(#43,#20),#17,.T.);
#172=CLOSED_SHELL('',(#161,#162,#163,#164,#165,#166,#167,#168,#169,#170,
#171));
#173=AXIS2_PLACEMENT_3D('placement',#244,#194,#195);
#174=AXIS2_PLACEMENT_3D('',#245,#196,#197);
#175=AXIS2_PLACEMENT_3D('',#262,#202,#203);
#176=AXIS2_PLACEMENT_3D('',#264,#204,#205);
#177=AXIS2_PLACEMENT_3D('',#267,#207,#208);
#178=AXIS2_PLACEMENT_3D('',#268,#209,#210);
#179=AXIS2_PLACEMENT_3D('',#282,#214,#215);
#180=AXIS2_PLACEMENT_3D('',#283,#216,#217);
#181=AXIS2_PLACEMENT_3D('',#284,#218,#219);
#182=AXIS2_PLACEMENT_3D('',#285,#220,#221);
#183=AXIS2_PLACEMENT_3D('',#286,#222,#223);
#184=AXIS2_PLACEMENT_3D('',#287,#224,#225);
#185=AXIS2_PLACEMENT_3D('',#288,#226,#227);
#186=AXIS2_PLACEMENT_3D('',#289,#228,#229);
#187=AXIS2_PLACEMENT_3D('',#290,#230,#231);
#188=AXIS2_PLACEMENT_3D('',#292,#232,#233);
#189=AXIS2_PLACEMENT_3D('',#294,#234,#235);
#190=AXIS2_PLACEMENT_3D('',#295,#236,#237);
#191=AXIS2_PLACEMENT_3D('',#297,#238,#239);
#192=AXIS2_PLACEMENT_3D('',#298,#240,#241);
#193=AXIS2_PLACEMENT_3D('',#299,#242,#243);
#194=DIRECTION('axis',(0.,0.,1.));
#195=DIRECTION('refdir',(1.,0.,0.));
#196=DIRECTION('center_axis',(1.,0.,-1.70740499604016E-16));
#197=DIRECTION('ref_axis',(-1.76247905159244E-16,0.,-1.));
#198=DIRECTION('',(0.,0.,1.));
#199=DIRECTION('',(0.,-1.,0.));
#200=DIRECTION('',(0.,0.,-1.));
#201=DIRECTION('',(0.,-1.,0.));
#202=DIRECTION('center_axis',(0.,0.,-1.));
#203=DIRECTION('ref_axis',(-1.,0.,0.));
#204=DIRECTION('center_axis',(0.,0.,-1.));
#205=DIRECTION('ref_axis',(-1.,0.,0.));
#206=DIRECTION('',(0.,-1.,0.));
#207=DIRECTION('center_axis',(0.,0.,-1.));
#208=DIRECTION('ref_axis',(-1.,0.,0.));
#209=DIRECTION('center_axis',(-1.,0.,5.69134998680055E-17));
#210=DIRECTION('ref_axis',(5.28743715477731E-17,0.,1.));
#211=DIRECTION('',(0.,0.,-1.));
#212=DIRECTION('',(0.,1.,0.));
#213=DIRECTION('',(0.,0.,1.));
#214=DIRECTION('center_axis',(0.,0.,-1.));
#215=DIRECTION('ref_axis',(-1.,0.,0.));
#216=DIRECTION('center_axis',(0.,0.,-1.));
#217=DIRECTION('ref_axis',(-1.,0.,0.));
#218=DIRECTION('center_axis',(0.,0.,-1.));
#219=DIRECTION('ref_axis',(-1.,0.,0.));
#220=DIRECTION('center_axis',(0.,0.,-1.));
#221=DIRECTION('ref_axis',(-1.,0.,0.));
#222=DIRECTION('center_axis',(0.,0.,-1.));
#223=DIRECTION('ref_axis',(-1.,0.,0.));
#224=DIRECTION('center_axis',(0.,0.,1.));
#225=DIRECTION('ref_axis',(-1.,0.,0.));
#226=DIRECTION('center_axis',(0.,0.,-1.));
#227=DIRECTION('ref_axis',(-1.,0.,0.));
#228=DIRECTION('center_axis',(0.,0.,1.));
#229=DIRECTION('ref_axis',(-1.,0.,0.));
#230=DIRECTION('center_axis',(0.,0.,1.));
#231=DIRECTION('ref_axis',(-1.,0.,0.));
#232=DIRECTION('center_axis',(0.,0.,1.));
#233=DIRECTION('ref_axis',(-1.,0.,0.));
#234=DIRECTION('center_axis',(0.,0.,1.));
#235=DIRECTION('ref_axis',(-1.,0.,0.));
#236=DIRECTION('center_axis',(0.,0.,1.));
#237=DIRECTION('ref_axis',(-1.,0.,0.));
#238=DIRECTION('center_axis',(0.,0.,1.));
#239=DIRECTION('ref_axis',(-1.,0.,0.));
#240=DIRECTION('center_axis',(6.12323399573677E-17,0.,1.));
#241=DIRECTION('ref_axis',(1.,0.,0.));
#242=DIRECTION('center_axis',(0.,0.,-1.));
#243=DIRECTION('ref_axis',(-1.,0.,0.));
#244=CARTESIAN_POINT('',(0.,0.,0.));
#245=CARTESIAN_POINT('Origin',(0.036,0.,0.));
#246=CARTESIAN_POINT('',(0.036,0.215513920664072,-0.096));
#247=CARTESIAN_POINT('',(0.036,0.215513920664072,-0.03));
#248=CARTESIAN_POINT('',(0.036,0.215513920664072,0.));
#249=CARTESIAN_POINT('',(0.036,-0.215513920664072,-0.096));
#250=CARTESIAN_POINT('',(0.036,0.,-0.096));
#251=CARTESIAN_POINT('',(0.036,-0.215513920664072,-0.03));
#252=CARTESIAN_POINT('',(0.036,-0.215513920664072,0.));
#253=CARTESIAN_POINT('',(0.036,-0.185030402907198,0.));
#254=CARTESIAN_POINT('Ctrl Pts',(0.036,-0.185030402907198,0.));
#255=CARTESIAN_POINT('Ctrl Pts',(0.036,-0.19914869061523,-0.0138584215542546));
#256=CARTESIAN_POINT('Ctrl Pts',(0.036,-0.215513920664072,-0.03));
#257=CARTESIAN_POINT('',(0.036,0.185030402907198,0.));
#258=CARTESIAN_POINT('',(0.036,0.,0.));
#259=CARTESIAN_POINT('Ctrl Pts',(0.036,0.215513920664072,-0.03));
#260=CARTESIAN_POINT('Ctrl Pts',(0.036,0.19914869061523,-0.0138584215542546));
#261=CARTESIAN_POINT('Ctrl Pts',(0.036,0.185030402907198,0.));
#262=CARTESIAN_POINT('Origin',(0.036,0.,-0.096));
#263=CARTESIAN_POINT('',(-0.036,0.215513920664072,-0.096));
#264=CARTESIAN_POINT('Origin',(0.,0.,-0.096));
#265=CARTESIAN_POINT('',(-0.036,-0.215513920664072,-0.096));
#266=CARTESIAN_POINT('',(-0.036,0.,-0.096));
#267=CARTESIAN_POINT('Origin',(0.,0.,-0.096));
#268=CARTESIAN_POINT('Origin',(-0.036,0.,-0.096));
#269=CARTESIAN_POINT('',(-0.036,0.215513920664072,-0.03));
#270=CARTESIAN_POINT('',(-0.036,0.215513920664072,0.));
#271=CARTESIAN_POINT('',(-0.036,0.185030402907198,0.));
#272=CARTESIAN_POINT('Ctrl Pts',(-0.036,0.185030402907198,0.));
#273=CARTESIAN_POINT('Ctrl Pts',(-0.036,0.19914869061523,-0.0138584215542546));
#274=CARTESIAN_POINT('Ctrl Pts',(-0.036,0.215513920664072,-0.03));
#275=CARTESIAN_POINT('',(-0.036,-0.185030402907198,0.));
#276=CARTESIAN_POINT('',(-0.036,0.,0.));
#277=CARTESIAN_POINT('',(-0.036,-0.215513920664072,-0.03));
#278=CARTESIAN_POINT('Ctrl Pts',(-0.036,-0.215513920664072,-0.03));
#279=CARTESIAN_POINT('Ctrl Pts',(-0.036,-0.19914869061523,-0.0138584215542546));
#280=CARTESIAN_POINT('Ctrl Pts',(-0.036,-0.185030402907198,0.));
#281=CARTESIAN_POINT('',(-0.036,-0.215513920664072,0.));
#282=CARTESIAN_POINT('Origin',(0.,0.,0.));
#283=CARTESIAN_POINT('Origin',(0.,0.,0.));
#284=CARTESIAN_POINT('Origin',(0.,0.,0.));
#285=CARTESIAN_POINT('Origin',(0.,0.,0.));
#286=CARTESIAN_POINT('Origin',(0.,0.,-0.015));
#287=CARTESIAN_POINT('Origin',(0.,0.,-0.03));
#288=CARTESIAN_POINT('Origin',(0.,0.,-0.015));
#289=CARTESIAN_POINT('Origin',(0.,0.,-0.03));
#290=CARTESIAN_POINT('Origin',(0.,0.,-0.439900412946337));
#291=CARTESIAN_POINT('',(-0.2185,0.,-0.438745712407958));
#292=CARTESIAN_POINT('Origin',(0.,0.,-0.438745712407958));
#293=CARTESIAN_POINT('',(-0.183,0.,-0.459241646964189));
#294=CARTESIAN_POINT('Origin',(0.,0.,-0.459241646964189));
#295=CARTESIAN_POINT('Origin',(0.,0.,-0.476741646964189));
#296=CARTESIAN_POINT('',(-0.183,0.,-0.494241646964189));
#297=CARTESIAN_POINT('Origin',(0.,0.,-0.494241646964189));
#298=CARTESIAN_POINT('Origin',(0.,0.,-0.281));
#299=CARTESIAN_POINT('Origin',(0.,0.,0.));
#300=UNCERTAINTY_MEASURE_WITH_UNIT(LENGTH_MEASURE(0.000393700787401575),
#304,'DISTANCE_ACCURACY_VALUE',
'Maximum model space distance between geometric entities at asserted c
onnectivities');
#301=UNCERTAINTY_MEASURE_WITH_UNIT(LENGTH_MEASURE(1.E-6),#305,
'DISTANCE_ACCURACY_VALUE',
'Maximum model space distance between geometric entities at asserted c
onnectivities');
#302=(
GEOMETRIC_REPRESENTATION_CONTEXT(3)
GLOBAL_UNCERTAINTY_ASSIGNED_CONTEXT((#300))
GLOBAL_UNIT_ASSIGNED_CONTEXT((#304,#310,#307))
REPRESENTATION_CONTEXT('','3D')
);
#303=(
GEOMETRIC_REPRESENTATION_CONTEXT(3)
GLOBAL_UNCERTAINTY_ASSIGNED_CONTEXT((#301))
GLOBAL_UNIT_ASSIGNED_CONTEXT((#305,#310,#307))
REPRESENTATION_CONTEXT('','3D')
);
#304=(
CONVERSION_BASED_UNIT('__CONSTANT UNIT inch',#306)
LENGTH_UNIT()
NAMED_UNIT(#309)
);
#305=(
LENGTH_UNIT()
NAMED_UNIT(*)
SI_UNIT(.MILLI.,.METRE.)
);
#306=LENGTH_MEASURE_WITH_UNIT(LENGTH_MEASURE(25.4),#305);
#307=(
NAMED_UNIT(*)
SI_UNIT($,.STERADIAN.)
SOLID_ANGLE_UNIT()
);
#308=DIMENSIONAL_EXPONENTS(0.,0.,0.,0.,0.,0.,0.);
#309=DIMENSIONAL_EXPONENTS(1.,0.,0.,0.,0.,0.,0.);
#310=(
CONVERSION_BASED_UNIT('degree',#312)
NAMED_UNIT(#308)
PLANE_ANGLE_UNIT()
);
#311=(
NAMED_UNIT(*)
PLANE_ANGLE_UNIT()
SI_UNIT($,.RADIAN.)
);
#312=PLANE_ANGLE_MEASURE_WITH_UNIT(PLANE_ANGLE_MEASURE(0.01745329252),#311);
#313=SHAPE_DEFINITION_REPRESENTATION(#314,#315);
#314=PRODUCT_DEFINITION_SHAPE('',$,#317);
#315=SHAPE_REPRESENTATION('',(#173),#302);
#316=PRODUCT_DEFINITION_CONTEXT('part definition',#321,'design');
#317=PRODUCT_DEFINITION('14225','14225',#318,#316);
#318=PRODUCT_DEFINITION_FORMATION('',$,#323);
#319=PRODUCT_RELATED_PRODUCT_CATEGORY('14225','14225',(#323));
#320=APPLICATION_PROTOCOL_DEFINITION('international standard',
'automotive_design',2009,#321);
#321=APPLICATION_CONTEXT(
'Core Data for Automotive Mechanical Design Process');
#322=PRODUCT_CONTEXT('part definition',#321,'mechanical');
#323=PRODUCT('14225','14225',$,(#322));
#324=PRESENTATION_STYLE_ASSIGNMENT((#325));
#325=SURFACE_STYLE_USAGE(.BOTH.,#326);
#326=SURFACE_SIDE_STYLE($,(#327));
#327=SURFACE_STYLE_FILL_AREA(#328);
#328=FILL_AREA_STYLE($,(#329));
#329=FILL_AREA_STYLE_COLOUR($,#330);
#330=COLOUR_RGB('',0.949019607843137,0.925490196078431,0.933333333333333);
ENDSEC;
END-ISO-10303-21;
